0
SECTION
2
HEADER
9
$EXTMIN
10
19.062162
20
20.200392
9
$EXTMAX
10
31.042452
20
32.180199
0
ENDSEC
0
SECTION
2
TABLES
0
TABLE
2
LTYPE
70
1
0
LTYPE
2
0
70
0
3
Solid Line
72
65
73
0
40
0.0
0
ENDTAB
0
TABLE
2
LAYER
70
1
0
LAYER
2
1
70
0
62
7
6
0
0
ENDTAB
0
ENDSEC
0
SECTION
2
BLOCKS
0
ENDSEC
0
SECTION
2
ENTITIES
0
POLYLINE
8
1
66
1
70
1
0
VERTEX
8
1
10
19.459274
20
24.046217
0
VERTEX
8
1
10
19.444126
20
24.085508
42
-222.817267
0
VERTEX
8
1
10
19.482811
20
23.985174
0
SEQEND
0
POLYLINE
8
1
66
1
70
1
0
VERTEX
8
1
10
25.761757
20
25.697592
0
VERTEX
8
1
10
24.495733
20
26.625364
42
0.296619
0
VERTEX
8
1
10
24.000751
20
26.678343
0
VERTEX
8
1
10
22.240683
20
25.809172
42
0.185385
0
VERTEX
8
1
10
22.147720
20
25.660467
0
VERTEX
8
1
10
21.934546
20
24.104280
42
0.258443
0
VERTEX
8
1
10
22.043501
20
23.780073
0
VERTEX
8
1
10
23.668018
20
22.531294
42
0.186823
0
VERTEX
8
1
10
23.946594
20
22.492891
0
VERTEX
8
1
10
25.428812
20
23.150412
42
0.152062
0
VERTEX
8
1
10
25.536123
20
23.291708
0
VERTEX
8
1
10
25.903202
20
25.338446
42
0.277558
0
SEQEND
0
POLYLINE
8
1
66
1
70
1
0
VERTEX
8
1
10
27.771744
20
26.725874
0
VERTEX
8
1
10
26.252016
20
25.623793
42
0.164254
0
VERTEX
8
1
10
26.137096
20
25.429670
0
VERTEX
8
1
10
25.793303
20
23.268690
42
0.268528
0
VERTEX
8
1
10
25.878624
20
23.104357
0
VERTEX
8
1
10
27.406088
20
22.388357
42
0.255748
0
VERTEX
8
1
10
27.545654
20
22.391890
0
VERTEX
8
1
10
29.483812
20
23.754854
42
0.176100
0
VERTEX
8
1
10
29.569151
20
23.895132
0
VERTEX
8
1
10
29.748549
20
25.569502
42
0.225630
0
VERTEX
8
1
10
29.660082
20
25.739416
0
VERTEX
8
1
10
27.940996
20
26.744234
42
0.227932
0
SEQEND
0
POLYLINE
8
1
66
1
70
1
0
VERTEX
8
1
10
20.709604
20
27.748461
42
-0.018379
0
VERTEX
8
1
10
21.144653
20
28.992842
0
VERTEX
8
1
10
21.524406
20
29.793036
0
VERTEX
8
1
10
21.241194
20
30.288660
42
0.562551
0
VERTEX
8
1
10
21.065771
20
30.305700
42
0.210809
0
VERTEX
8
1
10
19.327419
20
26.019918
42
0.597924
0
VERTEX
8
1
10
19.518869
20
25.964285
0
VERTEX
8
1
10
20.600643
20
27.252691
0
SEQEND
0
POLYLINE
8
1
66
1
70
1
0
VERTEX
8
1
10
27.932938
20
27.201109
0
VERTEX
8
1
10
27.317204
20
29.191587
42
-0.228588
0
VERTEX
8
1
10
27.356480
20
29.451246
0
VERTEX
8
1
10
28.251226
20
30.706785
42
-0.455232
0
VERTEX
8
1
10
28.550102
20
30.734251
42
-0.181348
0
VERTEX
8
1
10
30.675201
20
27.316343
42
-0.103794
0
VERTEX
8
1
10
30.641317
20
27.119772
0
VERTEX
8
1
10
30.054335
20
26.102804
0
VERTEX
8
1
10
29.846712
20
25.987455
0
VERTEX
8
1
10
28.120680
20
26.941694
42
-0.162078
0
SEQEND
0
POLYLINE
8
1
66
1
70
1
0
VERTEX
8
1
10
23.998083
20
20.620367
42
0.782060
0
VERTEX
8
1
10
23.994761
20
20.593805
42
0.108438
0
VERTEX
8
1
10
26.440760
20
20.636534
42
0.719552
0
VERTEX
8
1
10
26.434799
20
20.657999
0
VERTEX
8
1
10
26.078833
20
20.758799
0
VERTEX
8
1
10
25.537743
20
20.793425
0
VERTEX
8
1
10
24.374008
20
20.736860
0
SEQEND
0
POLYLINE
8
1
66
1
70
1
0
VERTEX
8
1
10
23.352585
20
20.729639
42
-0.148477
0
VERTEX
8
1
10
20.664860
20
22.563452
42
-0.142992
0
VERTEX
8
1
10
20.618427
20
22.717176
0
VERTEX
8
1
10
20.617899
20
23.205240
42
-0.285075
0
VERTEX
8
1
10
20.672329
20
23.277121
0
VERTEX
8
1
10
21.662880
20
23.534159
42
-0.205239
0
VERTEX
8
1
10
21.870047
20
23.497110
0
VERTEX
8
1
10
23.602545
20
22.229494
42
-0.187302
0
VERTEX
8
1
10
23.762833
20
21.995893
0
VERTEX
8
1
10
24.004658
20
21.166777
42
-0.233962
0
VERTEX
8
1
10
23.966309
20
20.978281
0
VERTEX
8
1
10
23.662115
20
20.738611
42
-0.116972
0
SEQEND
0
POLYLINE
8
1
66
1
70
1
0
VERTEX
8
1
10
19.515017
20
25.745047
42
0.863288
0
VERTEX
8
1
10
19.339403
20
25.780802
42
0.128178
0
VERTEX
8
1
10
20.266563
20
23.044500
42
0.392431
0
VERTEX
8
1
10
20.362434
20
23.239424
42
-0.012176
0
VERTEX
8
1
10
20.252119
20
23.422029
0
SEQEND
0
POLYLINE
8
1
66
1
70
1
0
VERTEX
8
1
10
29.738821
20
23.604872
0
VERTEX
8
1
10
27.664726
20
22.154078
42
0.042320
0
VERTEX
8
1
10
27.440296
20
21.977770
0
VERTEX
8
1
10
26.676022
20
21.042654
0
VERTEX
8
1
10
26.669334
20
20.928968
42
0.264216
0
VERTEX
8
1
10
26.727150
20
20.832296
0
VERTEX
8
1
10
26.847469
20
20.787970
42
0.120654
0
VERTEX
8
1
10
26.948982
20
20.782988
42
0.192205
0
VERTEX
8
1
10
30.146357
20
23.564085
42
0.438859
0
VERTEX
8
1
10
30.093931
20
23.641989
0
VERTEX
8
1
10
29.962564
20
23.655127
42
0.146865
0
SEQEND
0
POLYLINE
8
1
66
1
70
1
0
VERTEX
8
1
10
28.051769
20
31.017145
42
0.132008
0
VERTEX
8
1
10
27.861490
20
31.189085
42
0.139573
0
VERTEX
8
1
10
24.809370
20
31.917570
42
0.107178
0
VERTEX
8
1
10
24.389236
20
31.763548
0
VERTEX
8
1
10
24.034853
20
31.444242
0
VERTEX
8
1
10
23.835295
20
31.023310
42
0.271427
0
VERTEX
8
1
10
23.873772
20
30.664358
0
VERTEX
8
1
10
24.951084
20
29.433374
42
0.220140
0
VERTEX
8
1
10
25.158491
20
29.348532
0
VERTEX
8
1
10
26.967588
20
29.483164
42
0.152857
0
VERTEX
8
1
10
27.046019
20
29.525331
0
VERTEX
8
1
10
28.048172
20
30.850729
42
0.288665
0
SEQEND
0
POLYLINE
8
1
66
1
70
1
0
VERTEX
8
1
10
21.693199
20
29.509249
0
VERTEX
8
1
10
21.677948
20
29.478300
0
VERTEX
8
1
10
20.995455
20
27.738283
0
VERTEX
8
1
10
20.988337
20
27.708830
42
0.259910
0
VERTEX
8
1
10
21.102343
20
27.300524
0
VERTEX
8
1
10
22.023132
20
26.179163
42
0.375585
0
VERTEX
8
1
10
22.312124
20
26.112597
0
VERTEX
8
1
10
23.991623
20
26.957499
42
0.148384
0
VERTEX
8
1
10
24.264565
20
27.264494
0
VERTEX
8
1
10
24.730637
20
28.821371
42
0.265098
0
VERTEX
8
1
10
24.657803
20
29.221739
0
VERTEX
8
1
10
23.538664
20
30.610300
42
0.340121
0
VERTEX
8
1
10
23.260435
20
30.648932
0
VERTEX
8
1
10
22.163191
20
30.088396
0
VERTEX
8
1
10
21.849512
20
29.738775
42
0.074710
0
SEQEND
0
ENDSEC
0
EOF
